ISO-10303-21;
HEADER;
FILE_DESCRIPTION (( 'STEP AP214' ),
    '1' );
FILE_NAME ('5901986_KSTP1.stp',
    '2026-01-29T07:18:35',
    ( '' ),
    ( '' ),
    'SwSTEP 2.0',
    'SolidWorks 2024',
    '' );
FILE_SCHEMA (( 'AUTOMOTIVE_DESIGN' ));
ENDSEC;

DATA;
#1 = FACE_OUTER_BOUND ( 'NONE', #144, .T. ) ;
#2 = STYLED_ITEM ( 'NONE', ( #126 ), #180 ) ;
#3 = VERTEX_POINT ( 'NONE', #131 ) ;
#4 = EDGE_LOOP ( 'NONE', ( #96, #121, #53, #175 ) ) ;
#5 = LINE ( 'NONE', #38, #94 ) ;
#6 = PRODUCT_DEFINITION_FORMATION_WITH_SPECIFIED_SOURCE ( 'ANY', '', #125, .NOT_KNOWN. ) ;
#7 = DIRECTION ( 'NONE',  ( 0.000000000000000000, 0.000000000000000000, 1.000000000000000000 ) ) ;
#8 = CARTESIAN_POINT ( 'NONE',  ( 55.00000000000000000, -6.000000000000000000, 150.0000000000000000 ) ) ;
#9 = DIRECTION ( 'NONE',  ( 0.000000000000000000, 0.000000000000000000, 1.000000000000000000 ) ) ;
#10 = PRODUCT_DEFINITION_SHAPE ( 'NONE', 'NONE',  #160 ) ;
#11 = VECTOR ( 'NONE', #124, 1000.000000000000000 ) ;
#12 = SURFACE_SIDE_STYLE ('',( #139 ) ) ;
#13 = UNCERTAINTY_MEASURE_WITH_UNIT (LENGTH_MEASURE( 1.000000000000000082E-05 ), #127, 'distance_accuracy_value', 'NONE');
#14 = FACE_OUTER_BOUND ( 'NONE', #20, .T. ) ;
#15 =( NAMED_UNIT ( * ) PLANE_ANGLE_UNIT ( ) SI_UNIT ( $, .RADIAN. ) );
#16 = AXIS2_PLACEMENT_3D ( 'NONE', #146, #117, #61 ) ;
#17 = ADVANCED_FACE ( 'NONE', ( #1 ), #90, .T. ) ;
#18 = PRODUCT_CONTEXT ( 'NONE', #37, 'mechanical' ) ;
#19 = EDGE_CURVE ( 'NONE', #64, #174, #108, .T. ) ;
#20 = EDGE_LOOP ( 'NONE', ( #92, #21, #118, #133 ) ) ;
#21 = ORIENTED_EDGE ( 'NONE', *, *, #19, .F. ) ;
#22 = LINE ( 'NONE', #81, #43 ) ;
#23 = DIRECTION ( 'NONE',  ( 0.000000000000000000, -1.000000000000000000, 0.000000000000000000 ) ) ;
#24 = ADVANCED_BREP_SHAPE_REPRESENTATION ( '5901986_KSTP1', ( #180, #82 ), #67 ) ;
#25 = ORIENTED_EDGE ( 'NONE', *, *, #147, .T. ) ;
#26 = DIRECTION ( 'NONE',  ( 0.000000000000000000, 1.000000000000000000, 0.000000000000000000 ) ) ;
#27 = EDGE_CURVE ( 'NONE', #104, #3, #5, .T. ) ;
#28 = VECTOR ( 'NONE', #33, 1000.000000000000000 ) ;
#29 = CARTESIAN_POINT ( 'NONE',  ( -55.00000000000000000, 6.000000000000000000, -150.0000000000000000 ) ) ;
#30 = LINE ( 'NONE', #70, #11 ) ;
#31 = PRODUCT_RELATED_PRODUCT_CATEGORY ( 'part', '', ( #125 ) ) ;
#32 = FILL_AREA_STYLE ('',( #112 ) ) ;
#33 = DIRECTION ( 'NONE',  ( 1.000000000000000000, 0.000000000000000000, 0.000000000000000000 ) ) ;
#34 = EDGE_CURVE ( 'NONE', #3, #174, #22, .T. ) ;
#35 = VERTEX_POINT ( 'NONE', #159 ) ;
#36 = ORIENTED_EDGE ( 'NONE', *, *, #75, .F. ) ;
#37 = APPLICATION_CONTEXT ( 'automotive_design' ) ;
#38 = CARTESIAN_POINT ( 'NONE',  ( -55.00000000000000000, 6.000000000000000000, 150.0000000000000000 ) ) ;
#39 = ORIENTED_EDGE ( 'NONE', *, *, #78, .T. ) ;
#40 = ORIENTED_EDGE ( 'NONE', *, *, #166, .T. ) ;
#41 = CARTESIAN_POINT ( 'NONE',  ( -55.00000000000000000, -6.000000000000000000, -150.0000000000000000 ) ) ;
#42 = LINE ( 'NONE', #69, #150 ) ;
#43 = VECTOR ( 'NONE', #23, 1000.000000000000000 ) ;
#44 = DIRECTION ( 'NONE',  ( 1.000000000000000000, 0.000000000000000000, 0.000000000000000000 ) ) ;
#45 = EDGE_CURVE ( 'NONE', #95, #35, #132, .T. ) ;
#46 = FACE_OUTER_BOUND ( 'NONE', #162, .T. ) ;
#47 = LINE ( 'NONE', #149, #48 ) ;
#48 = VECTOR ( 'NONE', #138, 1000.000000000000000 ) ;
#49 = APPLICATION_PROTOCOL_DEFINITION ( 'draft international standard', 'automotive_design', 1998, #103 ) ;
#50 = EDGE_CURVE ( 'NONE', #145, #64, #47, .T. ) ;
#51 = ORIENTED_EDGE ( 'NONE', *, *, #176, .F. ) ;
#52 = ORIENTED_EDGE ( 'NONE', *, *, #166, .F. ) ;
#53 = ORIENTED_EDGE ( 'NONE', *, *, #50, .F. ) ;
#54 = EDGE_LOOP ( 'NONE', ( #62, #36, #157, #177 ) ) ;
#55 = CARTESIAN_POINT ( 'NONE',  ( -55.00000000000000000, 6.000000000000000000, -150.0000000000000000 ) ) ;
#56 = CARTESIAN_POINT ( 'NONE',  ( -55.00000000000000000, -6.000000000000000000, -150.0000000000000000 ) ) ;
#57 = PLANE ( 'NONE',  #74 ) ;
#58 =( GEOMETRIC_REPRESENTATION_CONTEXT ( 3 ) GLOBAL_UNCERTAINTY_ASSIGNED_CONTEXT ( ( #13 ) ) GLOBAL_UNIT_ASSIGNED_CONTEXT ( ( #127, #186, #142 ) ) REPRESENTATION_CONTEXT ( 'NONE', 'WORKASPACE' ) );
#59 = LINE ( 'NONE', #68, #172 ) ;
#60 = DIRECTION ( 'NONE',  ( 1.000000000000000000, 0.000000000000000000, 0.000000000000000000 ) ) ;
#61 = DIRECTION ( 'NONE',  ( 1.000000000000000000, 0.000000000000000000, 0.000000000000000000 ) ) ;
#62 = ORIENTED_EDGE ( 'NONE', *, *, #34, .F. ) ;
#63 = EDGE_LOOP ( 'NONE', ( #129, #52, #25, #77 ) ) ;
#64 = VERTEX_POINT ( 'NONE', #168 ) ;
#65 = PRODUCT_DEFINITION_CONTEXT ( 'detailed design', #103, 'design' ) ;
#66 = VECTOR ( 'NONE', #136, 1000.000000000000000 ) ;
#67 =( GEOMETRIC_REPRESENTATION_CONTEXT ( 3 ) GLOBAL_UNCERTAINTY_ASSIGNED_CONTEXT ( ( #187 ) ) GLOBAL_UNIT_ASSIGNED_CONTEXT ( ( #89, #15, #173 ) ) REPRESENTATION_CONTEXT ( 'NONE', 'WORKASPACE' ) );
#68 = CARTESIAN_POINT ( 'NONE',  ( -55.00000000000000000, -6.000000000000000000, 150.0000000000000000 ) ) ;
#69 = CARTESIAN_POINT ( 'NONE',  ( 55.00000000000000000, 6.000000000000000000, -150.0000000000000000 ) ) ;
#70 = CARTESIAN_POINT ( 'NONE',  ( 55.00000000000000000, -6.000000000000000000, -150.0000000000000000 ) ) ;
#71 = VECTOR ( 'NONE', #26, 1000.000000000000000 ) ;
#72 = SURFACE_STYLE_USAGE ( .BOTH. , #12 ) ;
#73 = FACE_OUTER_BOUND ( 'NONE', #4, .T. ) ;
#74 = AXIS2_PLACEMENT_3D ( 'NONE', #113, #165, #44 ) ;
#75 = EDGE_CURVE ( 'NONE', #145, #3, #102, .T. ) ;
#76 = SHAPE_DEFINITION_REPRESENTATION ( #10, #24 ) ;
#77 = ORIENTED_EDGE ( 'NONE', *, *, #75, .T. ) ;
#78 = EDGE_CURVE ( 'NONE', #174, #158, #59, .T. ) ;
#79 = ORIENTED_EDGE ( 'NONE', *, *, #130, .T. ) ;
#80 = PRESENTATION_LAYER_ASSIGNMENT (  '', '', ( #2 ) ) ;
#81 = CARTESIAN_POINT ( 'NONE',  ( -55.00000000000000000, 6.000000000000000000, 150.0000000000000000 ) ) ;
#82 = AXIS2_PLACEMENT_3D ( 'NONE', #171, #114, #60 ) ;
#83 = ORIENTED_EDGE ( 'NONE', *, *, #34, .T. ) ;
#84 = CARTESIAN_POINT ( 'NONE',  ( 55.00000000000000000, -6.000000000000000000, -150.0000000000000000 ) ) ;
#85 = CARTESIAN_POINT ( 'NONE',  ( 55.00000000000000000, 6.000000000000000000, 150.0000000000000000 ) ) ;
#86 = PLANE ( 'NONE',  #170 ) ;
#87 = DIRECTION ( 'NONE',  ( 1.000000000000000000, 0.000000000000000000, 0.000000000000000000 ) ) ;
#88 = PLANE ( 'NONE',  #161 ) ;
#89 =( LENGTH_UNIT ( ) NAMED_UNIT ( * ) SI_UNIT ( .MILLI., .METRE. ) );
#90 = PLANE ( 'NONE',  #16 ) ;
#91 = EDGE_CURVE ( 'NONE', #64, #95, #122, .T. ) ;
#92 = ORIENTED_EDGE ( 'NONE', *, *, #78, .F. ) ;
#93 = DIRECTION ( 'NONE',  ( -1.000000000000000000, 0.000000000000000000, 0.000000000000000000 ) ) ;
#94 = VECTOR ( 'NONE', #93, 1000.000000000000000 ) ;
#95 = VERTEX_POINT ( 'NONE', #84 ) ;
#96 = ORIENTED_EDGE ( 'NONE', *, *, #45, .F. ) ;
#97 = CARTESIAN_POINT ( 'NONE',  ( 55.00000000000000000, 6.000000000000000000, -150.0000000000000000 ) ) ;
#98 = DIRECTION ( 'NONE',  ( -1.000000000000000000, 0.000000000000000000, 0.000000000000000000 ) ) ;
#99 = AXIS2_PLACEMENT_3D ( 'NONE', #56, #110, #164 ) ;
#100 = PLANE ( 'NONE',  #99 ) ;
#101 = LINE ( 'NONE', #182, #66 ) ;
#102 = LINE ( 'NONE', #154, #105 ) ;
#103 = APPLICATION_CONTEXT ( 'automotive_design' ) ;
#104 = VERTEX_POINT ( 'NONE', #85 ) ;
#105 = VECTOR ( 'NONE', #7, 1000.000000000000000 ) ;
#106 = DIRECTION ( 'NONE',  ( 0.000000000000000000, 0.000000000000000000, 1.000000000000000000 ) ) ;
#107 = ADVANCED_FACE ( 'NONE', ( #73 ), #88, .F. ) ;
#108 = LINE ( 'NONE', #148, #143 ) ;
#109 = LINE ( 'NONE', #163, #178 ) ;
#110 = DIRECTION ( 'NONE',  ( 0.000000000000000000, -1.000000000000000000, 0.000000000000000000 ) ) ;
#111 = CARTESIAN_POINT ( 'NONE',  ( 55.00000000000000000, 6.000000000000000000, -150.0000000000000000 ) ) ;
#112 = FILL_AREA_STYLE_COLOUR ( '', #141 ) ;
#113 = CARTESIAN_POINT ( 'NONE',  ( -55.00000000000000000, 6.000000000000000000, -150.0000000000000000 ) ) ;
#114 = DIRECTION ( 'NONE',  ( 0.000000000000000000, 0.000000000000000000, 1.000000000000000000 ) ) ;
#115 = ADVANCED_FACE ( 'NONE', ( #167 ), #179, .T. ) ;
#116 = ORIENTED_EDGE ( 'NONE', *, *, #27, .T. ) ;
#117 = DIRECTION ( 'NONE',  ( 0.000000000000000000, 0.000000000000000000, 1.000000000000000000 ) ) ;
#118 = ORIENTED_EDGE ( 'NONE', *, *, #91, .T. ) ;
#119 = ORIENTED_EDGE ( 'NONE', *, *, #45, .T. ) ;
#120 = CLOSED_SHELL ( 'NONE', ( #17, #107, #169, #115, #137, #134 ) ) ;
#121 = ORIENTED_EDGE ( 'NONE', *, *, #91, .F. ) ;
#122 = LINE ( 'NONE', #41, #28 ) ;
#123 = FACE_OUTER_BOUND ( 'NONE', #63, .T. ) ;
#124 = DIRECTION ( 'NONE',  ( 0.000000000000000000, 0.000000000000000000, 1.000000000000000000 ) ) ;
#125 = PRODUCT ( '5901986_KSTP1', '5901986_KSTP1', '', ( #18 ) ) ;
#126 = PRESENTATION_STYLE_ASSIGNMENT (( #72 ) ) ;
#127 =( LENGTH_UNIT ( ) NAMED_UNIT ( * ) SI_UNIT ( .MILLI., .METRE. ) );
#128 = ORIENTED_EDGE ( 'NONE', *, *, #130, .F. ) ;
#129 = ORIENTED_EDGE ( 'NONE', *, *, #27, .F. ) ;
#130 = EDGE_CURVE ( 'NONE', #158, #104, #101, .T. ) ;
#131 = CARTESIAN_POINT ( 'NONE',  ( -55.00000000000000000, 6.000000000000000000, 150.0000000000000000 ) ) ;
#132 = LINE ( 'NONE', #97, #71 ) ;
#133 = ORIENTED_EDGE ( 'NONE', *, *, #176, .T. ) ;
#134 = ADVANCED_FACE ( 'NONE', ( #46 ), #86, .T. ) ;
#135 = DIRECTION ( 'NONE',  ( 1.000000000000000000, 0.000000000000000000, 0.000000000000000000 ) ) ;
#136 = DIRECTION ( 'NONE',  ( 0.000000000000000000, 1.000000000000000000, 0.000000000000000000 ) ) ;
#137 = ADVANCED_FACE ( 'NONE', ( #14 ), #100, .T. ) ;
#138 = DIRECTION ( 'NONE',  ( 0.000000000000000000, -1.000000000000000000, 0.000000000000000000 ) ) ;
#139 = SURFACE_STYLE_FILL_AREA ( #32 ) ;
#140 = DIRECTION ( 'NONE',  ( 0.000000000000000000, 0.000000000000000000, 1.000000000000000000 ) ) ;
#141 = COLOUR_RGB ( '',0.7921568627450980005, 0.8196078431372548767, 0.9333333333333333481 ) ;
#142 =( NAMED_UNIT ( * ) SI_UNIT ( $, .STERADIAN. ) SOLID_ANGLE_UNIT ( ) );
#143 = VECTOR ( 'NONE', #106, 1000.000000000000000 ) ;
#144 = EDGE_LOOP ( 'NONE', ( #79, #116, #83, #39 ) ) ;
#145 = VERTEX_POINT ( 'NONE', #55 ) ;
#146 = CARTESIAN_POINT ( 'NONE',  ( 0.000000000000000000, 0.000000000000000000, 150.0000000000000000 ) ) ;
#147 = EDGE_CURVE ( 'NONE', #35, #145, #109, .T. ) ;
#148 = CARTESIAN_POINT ( 'NONE',  ( -55.00000000000000000, -6.000000000000000000, -150.0000000000000000 ) ) ;
#149 = CARTESIAN_POINT ( 'NONE',  ( -55.00000000000000000, 6.000000000000000000, -150.0000000000000000 ) ) ;
#150 = VECTOR ( 'NONE', #184, 1000.000000000000000 ) ;
#151 = DIRECTION ( 'NONE',  ( 0.000000000000000000, 1.000000000000000000, 0.000000000000000000 ) ) ;
#152 = CARTESIAN_POINT ( 'NONE',  ( -55.00000000000000000, -6.000000000000000000, 150.0000000000000000 ) ) ;
#153 = CARTESIAN_POINT ( 'NONE',  ( 0.000000000000000000, 0.000000000000000000, -150.0000000000000000 ) ) ;
#154 = CARTESIAN_POINT ( 'NONE',  ( -55.00000000000000000, 6.000000000000000000, -150.0000000000000000 ) ) ;
#155 = AXIS2_PLACEMENT_3D ( 'NONE', #29, #98, #140 ) ;
#156 = APPLICATION_PROTOCOL_DEFINITION ( 'draft international standard', 'automotive_design', 1998, #37 ) ;
#157 = ORIENTED_EDGE ( 'NONE', *, *, #50, .T. ) ;
#158 = VERTEX_POINT ( 'NONE', #8 ) ;
#159 = CARTESIAN_POINT ( 'NONE',  ( 55.00000000000000000, 6.000000000000000000, -150.0000000000000000 ) ) ;
#160 = PRODUCT_DEFINITION ( 'UNKNOWN', '', #6, #65 ) ;
#161 = AXIS2_PLACEMENT_3D ( 'NONE', #153, #9, #135 ) ;
#162 = EDGE_LOOP ( 'NONE', ( #128, #51, #119, #40 ) ) ;
#163 = CARTESIAN_POINT ( 'NONE',  ( -55.00000000000000000, 6.000000000000000000, -150.0000000000000000 ) ) ;
#164 = DIRECTION ( 'NONE',  ( 0.000000000000000000, 0.000000000000000000, -1.000000000000000000 ) ) ;
#165 = DIRECTION ( 'NONE',  ( -0.000000000000000000, 1.000000000000000000, 0.000000000000000000 ) ) ;
#166 = EDGE_CURVE ( 'NONE', #35, #104, #42, .T. ) ;
#167 = FACE_OUTER_BOUND ( 'NONE', #54, .T. ) ;
#168 = CARTESIAN_POINT ( 'NONE',  ( -55.00000000000000000, -6.000000000000000000, -150.0000000000000000 ) ) ;
#169 = ADVANCED_FACE ( 'NONE', ( #123 ), #57, .T. ) ;
#170 = AXIS2_PLACEMENT_3D ( 'NONE', #111, #181, #151 ) ;
#171 = CARTESIAN_POINT ( 'NONE',  ( 0.000000000000000000, 0.000000000000000000, 0.000000000000000000 ) ) ;
#172 = VECTOR ( 'NONE', #87, 1000.000000000000000 ) ;
#173 =( NAMED_UNIT ( * ) SI_UNIT ( $, .STERADIAN. ) SOLID_ANGLE_UNIT ( ) );
#174 = VERTEX_POINT ( 'NONE', #152 ) ;
#175 = ORIENTED_EDGE ( 'NONE', *, *, #147, .F. ) ;
#176 = EDGE_CURVE ( 'NONE', #95, #158, #30, .T. ) ;
#177 = ORIENTED_EDGE ( 'NONE', *, *, #19, .T. ) ;
#178 = VECTOR ( 'NONE', #185, 1000.000000000000000 ) ;
#179 = PLANE ( 'NONE',  #155 ) ;
#180 = MANIFOLD_SOLID_BREP ( 'NONE', #120 ) ;
#181 = DIRECTION ( 'NONE',  ( 1.000000000000000000, 0.000000000000000000, 0.000000000000000000 ) ) ;
#182 = CARTESIAN_POINT ( 'NONE',  ( 55.00000000000000000, 6.000000000000000000, 150.0000000000000000 ) ) ;
#183 = MECHANICAL_DESIGN_GEOMETRIC_PRESENTATION_REPRESENTATION (  '', ( #2 ), #58 ) ;
#184 = DIRECTION ( 'NONE',  ( 0.000000000000000000, 0.000000000000000000, 1.000000000000000000 ) ) ;
#185 = DIRECTION ( 'NONE',  ( -1.000000000000000000, 0.000000000000000000, 0.000000000000000000 ) ) ;
#186 =( NAMED_UNIT ( * ) PLANE_ANGLE_UNIT ( ) SI_UNIT ( $, .RADIAN. ) );
#187 = UNCERTAINTY_MEASURE_WITH_UNIT (LENGTH_MEASURE( 1.000000000000000082E-05 ), #89, 'distance_accuracy_value', 'NONE');
ENDSEC;
END-ISO-10303-21;
